jueves, 31 de mayo de 2012

LADY GAGA - SPEECHLESS.

LADY GAGA es una cantautorapianista bailarina estadounidense nacida el 28 de marzo de 1986. Se ha caracterizado por su estilo extravagante, futurista, cambiante y por romper diversos records de ventas. Su fama mundial vino en el año 2008 gracias al álbum “The Fame”, el cual vendió más de 12 millones de ejemplares en todo el mundo en un período de dos años. El sencillo “Poker Face” fue el más vendido del 2009 con más de 9,8 millones de descargas. En el 2009 lanza “The Fame Monster” con éxito similar, el video de “Bad Romance” fue el más visto en Youtube con más de 80 millones de visitas. En 2011 sale a la venta su último álbum hasta la fecha titulado “Born This Way” con un éxito comercial rotundo y una recepción positiva de la crítica. El primer sencillo de este álbum fue el más vendido en la historia de iTunes, con más de de medio millón de copias en solo 5 días. La cantante ha ganado 5 premios Grammy y ha vendido más de 22 millones de discos en todo el mundo.


SPEECHLESS:
Es una canción del EP “The Fame Monster” de Lady Gaga. Fue escrito por la cantante y su lanzamiento se hizo el 18 de noviembre de 2009 en formato de descarga digital. Pertenece al  género musical Glam Rock y tiene una duración de 4:31 minutos.


*COMO TOCARLA EN GUITARRA.

Intro:
C
Hooow?
G          Am
Haaaa-oooo-ow-ow?
G                F-G
Haaaa-ahah-ah-ooow?

  Am                  
I can’t believe what you said to me
     G
Last night when we were alone
    F
You threw your hands up
        G            Ab/E
Baby you gave up, you gave up

  Am
I can’t believe how you looked at me
          G
With your James Dean glossy eyes
        F
In your tight jeans with your long hair
       G     Ab/E                
And your cigarette stained lies

Am      Ab/E                 G
Could we fix you if you broke?
             F#/D              C
And is your punch line just a joke?

     G               Am
I’ll never talk again
   G                  F
Oh boy you’ve left me speechless
               G              Ab/E
You’ve left me speechless, so speechless

    C    G               Am
And I'll never love again
   G                  F
Oh boy you've left me speechless
               G           (dejar de tocar)
You've left me speechless, so speechless.

  Am
I can’t believe how you slurred at me
         G
With your half wired broken jaw
          F
You popped my heart seams
      G
On my bubble dreams, bubble dreams

  Am
I can’t believe how you looked at me
          G
With your Johnnie Walker eyes
           F
He’s gonna get you and after he’s through
              G                    Am
There’s gonna be no love left to rye

                    Ab/E
And I know that it’s complicated
                         G
But I’m a loser in love, so baby

Raise a glass to mend
                    F#/D
All the broken hearts

Of all my wrecked up friends

C    G               Am
I’ll never talk again
   G                  F
Oh boy you’ve left me speechless
               G            Ab/E
You’ve left me speechless, so speechless

    C    G               Am
And I'll never love again
   G                       F
Oh Friend you've left me speechless
               G
You've left me speechless, so speechless.

C
Hooow?
G          Am
Haaaa-oooo-ow-ow?
G                F-G
Haaaa-ahah-ah-ooow?

C
Hooow?
G          Am
Haaaa-oooo-ow-ow?
G                F-G-G-G-G-G-F#-F
Haaaa-ahah-ah-ooow?

F                            E
And after all the drinks and bars that we’ve been to
          C
Would you give it all up?
        G                   Am  G-F#-F
Could I give it all up for you?

F                              E
And after all the boys and the girls that we’ve been through
          C
Would you give it all up?
          G
Could you give it all up?
      Am                F
If I promised, boy, to you

C         G              Am-F
That I’ll never talk again
C         G              Am-F
And I’ll never love again

C    G              Am
I’ll never write a song
      G          F
Won’t even sing along
     G               C G Am
I’ll never love again

    G              F
So speechless, hey hey.
              G
You left me speechless, so speechless aye aye
C   G         Am        G              F
You ever talk again, oh boy why you so speechless?
            G
You left me speechless, so speechless

C    G            Am
Some men may follow me
               G
But you choose “death and company”
F           G               C
Why you so speechless? Oh, oh

martes, 29 de mayo de 2012

OASIS - HALF THE WORLD AWAY.

OASIS fue una banda británica formada en Manchester, en 1991. Sus miembros oficiales fueron: Noel Gallagher (primera guitarra), Liam Gallagher (voz), Gem Archer (segunda guitarra) y Andy Bell (bajo). Los hermanos Gallagher fueron los únicos miembros originales hasta el día de la separación de la banda. Han vendido más de 80 millones de discos en todo el mundo y han entrado en el libro Guinness en numerosas ocasiones debido a diversos records alcanzados.

HALF THE WORLD AWAY:
Es una canción de la banda Oasis, fue escrita por Noel Gallagher y su publicación se hizo el 18 de diciembre de 1994. Pertenece al género musical Rock Alternativo y tiene una duración de 4:25 minutos.


*COMO TOCARLA EN GUITARRA.

Intro:
        C           Fmaj7        C             Fmaj7
E--------0----------0-----------0----------0----------
B-----------1-----1----1-----------1-----1----1-------
G------------0----------2-----0-----0----------2------
D----------------3-3--------------------3-3-----------
A---------------------------3-------------------------
E-----------------------------------------------------

Verso 1:
I would like to leave this...This old town dont smell too...
        C       Fmaj7      C           Fmaj7
E--------0----------0-----------0----------0----------
B-----------1-----1----1-----------1-----1----1-------
G------0-----0----------2-----0-----0----------2------
D----------------3-3--------------------3-3-----------
A----3----------------------3-------------------------
E-----------------------------------------------------

Puente:
I can feel the warning signs running around my mind.
     C    C/B      Am        D7         Fmaj7
E----0----0------0----0----2---2---------0------------
B-----1----1------1----1-----1---1-----1----1---------
G------0----0-------2---------2---2----------2--------
D-------------------------------------3-3-------------
A--------------0--------------------------------------
E--3----2---------------------------------------------

Verso 2:
And when I leave this island I booked myself into a soul asylum
        C       Fmaj7      C           Fmaj7
E--------0----------0-----------0----------0----------
B-----------1-----1----1-----------1-----1----1-------
G------0-----0----------2-----0-----0----------2------
D----------------3-3--------------------3-3-----------
A----3----------------------3-------------------------
E-----------------------------------------------------

Puente:
Cause I can feel the warning signs running around my mind.
     C    C/B      Am        D7         Fmaj7
E----0----0------0----0----2---2---------0------------
B-----1----1------1----1-----1---1-----1----1---------
G------0----0-------2---------2---2----------2--------
D-------------------------------------3-3-------------
A--------------0--------------------------------------
E--3----2---------------------------------------------

Coro:
So here I go. I'm still scratchin around in the same old hole
    Am         C          E7          Am
E------0------------0-----------0-----------0---------
B---------1------------1-----------0-----------1------
G----2-----2------0-----2-----1-----1-----2-----2-----
D-----------------------------------------------------
A--0------------3-----------------------0-------------
E---------------------------0-------------------------

My body feels young but my mind is very old.
    Fmaj7    D7         G       G7
E------0-----------2-----------3-----------1----------
B---------1-----------1-----------0-----------0-------
G----2-----2-----2-----2-----0-----0-----0-----0------
D--3-----------0--------------------------------------
A-----------------------------------------------------
E--------------------------3-----------3--------------

So what do you say. You cant give me the dreams that...
    Am         C          E7          Am
E------0------------0-----------0-----------0-------
B---------1------------1-----------0-----------1----
G----2-----2------0-----2-----1-----1-----2-----2---
D---------------------------------------------------
A--0------------3-----------------------0-----------
E---------------------------0-----------------------

Half the world away  Half the world away
     Am                   Fm
E-----0-----0----0---------1----1----1--------------
B---1----1-----1---1-----1----1----1----1-----------
G--2-2----2-----2---2---1-1----1----1----1----------
D---------------------------------------------------
A---------------------------------------------------
E---------------------------------------------------

Half the world away, I've been lost and been found but...
     C    C/B      Am        D7         Fmaj7
E----0----0------0----0----2---2---------0----------
B-----1----1------1----1-----1---1-----1----1-------
G------0----0-------2---------2---2----------2------
D-------------------------------------3-3-----------
A--------------0------------------------------------
E--3----2-------------------------------------------

     Fmaj7
E--0----0----0----------0---------------------------
B-----1----1----1-----1----1-----1------------------
G------2----2----2----------2----2------------------
D--------------------3-3---------3------------------
A---------------------------------------------------
E---------------------------------------------------

        C       Fmaj7      C           Fmaj7
E--------0----------0-----------0----------0--------
B-----------1-----1----1-----------1-----1----1-----
G------0-----0----------2-----0-----0----------2----
D----------------3-3--------------------3-3---------
A----3----------------------3-----------------------
E---------------------------------------------------

Verso 3:
And if I could leave this planet,you know i'd stay but I...
        C       Fmaj7      C           Fmaj7
E--------0----------0-----------0----------0--------
B-----------1-----1----1-----------1-----1----1-----
G------0-----0----------2-----0-----0----------2----
D----------------3-3--------------------3-3---------
A----3----------------------3-----------------------
E---------------------------------------------------

Puente:
I can feel the warning signs running around my mind.
     C    C/B      Am        D7         Fmaj7
E----0----0------0----0----2---2---------0----------
B-----1----1------1----1-----1---1-----1----1-------
G------0----0-------2---------2---2----------2------
D-------------------------------------3-3-----------
A--------------0------------------------------------
E--3----2-------------------------------------------

Coro:
So here I go. I'm still scratchin around in the same old hole
    Am         C          E7          Am
E------0------------0-----------0-----------0--------
B---------1------------1-----------0-----------1-----
G----2-----2------0-----2-----1-----1-----2-----2----
D----------------------------------------------------
A--0------------3-----------------------0------------
E---------------------------0------------------------

My body feels young but my mind is very old.
    Fmaj7    D7         G       G7
E------0-----------2-----------3-----------1---------
B---------1-----------1-----------0-----------0------
G----2-----2-----2-----2-----0-----0-----0-----0-----
D--3-----------0-------------------------------------
A----------------------------------------------------
E--------------------------3-----------3-------------

So what do you say. You cant give me the dreams that...
    Am         C          E7          Am
E------0------------0-----------0-----------0--------
B---------1------------1-----------0-----------1-----
G----2-----2------0-----2-----1-----1-----2-----2----
D----------------------------------------------------
A--0------------3-----------------------0------------
E---------------------------0------------------------

Half the world away  Half the world away
     Am                   Fm
E-----0-----0----0---------1----1----1---------------
B---1----1-----1---1-----1----1----1----1------------
G--2-2----2-----2---2---1-1----1----1----1-----------
D----------------------------------------------------
A----------------------------------------------------
E----------------------------------------------------

Half the world away, I've been lost and been found but...
     C    C/B      Am        D7         Fmaj7
E----0----0------0----0----2---2---------0-----------
B-----1----1------1----1-----1---1-----1----1--------
G------0----0-------2---------2---2----------2-------
D-------------------------------------3-3------------
A--------------0-------------------------------------
E--3----2--------------------------------------------

     Fmaj7
E--0----0----0----------0----0----0------------------
B-----1----1----1-----1----1----1----1---------------
G------2----2----2----------2----2----2--------------
D--------------------3-3-----------------------------
A----------------------------------------------------
E----------------------------------------------------

    Fmaj7
E------0-----0----0----------0-----------------------
B----1-----1----1----1-----1----1---1----------------
G-----------2----2----2----------2--2----------------
D---3-3-------------------3-3-------3----------------
A----------------------------------------------------
E----------------------------------------------------

Final:
        C       Fmaj7      C           Fmaj7
E--------0----------0-----------0----------0---------
B-----------1-----1----1-----------1-----1----1------
G------0-----0----------2-----0-----0----------2-----
D----------------3-3--------------------3-3----------
A----3----------------------3------------------------
E----------------------------------------------------

        C       Fmaj7      C           Fmaj7
E--------0----------0-----------0----------0---------
B-----------1-----1----1-----------1-----1----1------
G------0-----0----------2-----0-----0----------2-----
D----------------3-3--------------------3-3----------
A----3----------------------3------------------------
E----------------------------------------------------

lunes, 28 de mayo de 2012

EVANESCENCE - MY HEART IS BROKEN.

EVANESCENCE es una banda de Rock fundada en Little Rock, Arkansas en 1995 por Amy Lee (voz, piano, composición) y el ex-miembro Ben Moody (guitarra). 
La banda ha sufrido varios cambios de integrantes durante su transcurso, conservando a Amy Lee como único miembro original. Han ganado 2 premios Grammy y vendido más de 26 millones de álbumes en todo el mundo hasta la fecha. Su disco más exitoso ha sido sin dudas “Fallen” (2002) que ha vendido más de 17 millones de ejemplares en todo el mundo. Actualmente se encuentran promocionando su último trabajo discográfico titulado “Evanescence”, del cual se han extraido los sencillos “What you Want” y “My Heart is Broken”.

MY HEART IS BROKEN:
Es el segundo sencillo del álbum homónimo de la banda Evanescence. Fue escrito por Amy Lee, Terry Balsamo, Tim McCord y Zach Williams; su lanzamiento se hizo el 31 de octubre de 2011 en formato de descarga digital. Es una canción perteneciente al género metal alternativo y tiene una duración de 4:29 minutos en versión álbum.


*COMO TOCARLA EN GUITARRA.

(LLEVA REQUINTO EN CUARTO TRASTE)

G       E    B               G
I will wonder 'till the end of time
         A
Torn away from you

Bm G
Bm E

Bm G        Bm             E
I   pull away to face the pain
Bm G         Bm               E
I   close my eyes and drift away
          G
Over the fear
     E       B           G
That I   will never find a way
E          B
To heal my soul
    G       E    B               G
And I will wonder 'till the end of time
         A
Torn away from you

Coro:
Bm    G      D   A
My heart is broken
Bm    G              D   A
Sweet sleep my dark angel
          Bm 
Deliver us from sorrow's hold

Bm G
Bm E

Bm G         Bm             E
I   can’t go on living this way, but
Bm G         Bm              E  
I   can’t go back the way I came
                G
Chained to this fear
     E       B           G
That I   will never find a way
E          B
To heal my soul
    G       E    B               G
And I will wonder 'till the end of time
          A
Half alive without you

Coro:
Bm    G      D   A
My heart is broken
Bm    G              D   A
Sweet sleep my dark angel
          Bm
Deliver us
  Bm
Change

Puente:
Bm                     F#
Open your eyes to the light,
            E              D             G
I denied it all so long, oh so long
      Bm
Say goodbye, goodbye

Coro x2:
Bm    G      D   A
My heart is broken
Bm    G              D   A
Sweet sleep my dark angel
         
Deliver us

Bm    G      D   A
My heart is broken
Bm    G              D   A
Sweet sleep my dark angel
        Bm
Deliver us from sorrow's hold

domingo, 27 de mayo de 2012

THE KILLERS - SMILE LIKE YOU MEAN IT.

THE KILLERS es una banda estadounidense de Las Vegas, formada en 2002. Sus integrantes son: Brandon Flowers (voz, teclado), Dave Keuning (guitarra, coro), Mark Stoermer (bajo, coro), y Ronnie Vannucci Jr. (batería, percusión). Su primer álbum titulado “Hot Fuss” (2004) fue todo un éxito comercial, colocó varios sencillos en altas posiciones de diversos rankings. Su segundo álbum titulado “Sam´s Town” (2006) no obtuvo demasiada repercusión, comparando con su predecesor. En 2007 lanzan “Sawdust” que es un disco más bien de recopilaciones. Su último proyecto discográfico hasta la fecha es “Day and Age” (2008) que se convirtió en el tercer trabajo de estudio de la banda en llegar a ser número 1 en Reino Unido e Irlanda.

SMILE LIKE YOU MEAN IT:
Es una canción de la banda norteamericana The Killers, escrita por su vocalista Brandon Flowers y Mark Stoermer. Fue lanzada en mayo de 2005 como cuarto y último sencillo del álbum “Hot Fuss”, obtuvo un éxito moderado. La canción trata sobre el paso del tiempo, de las equivocaciones que cometemos y que todo avanza a pesar de eso. El sencillo pertenece al género musical Rock Indie y tiene una duración de 3:54 minutos.


*COMO TOCARLA EN GUITARRA.

Intro:
e------------------------------------
B------------------------------------
G------------------------------------
D------------------------------9-9---
A-7-7-7-7-7-7-7-10-10-10-10-10-----7-
E------------------------------------

G             Am7    Em
Save some face, you know you've only got one
G               Am7            Em
Change your ways while you're young
G  Am             Em
Boy, one day you'll be a man
G      Am7              Em
Oh girl, he'll help you understand

G/B            C        G     D/F#
Smile like you mean it
G/B            C        G     D/F#
Smile like you mean it

G           Am7   Em
Looking back at sunsets on the Eastside
G            Am7         Em
We lost track of the time
G     Am                 Em
Dreams aren't what they used to be
G          Am           Em
Some things sat by so carelessly

G/B            C        G    D/F#
Smile like you mean it
G/B            C        G    D/F#
Smile like you mean it

Solo:
e-13----13----13----13----14----14----14----14----
B----14----14----14----14----14----14----14----14-
G-------------------------------------------------
D-------------------------------------------------
A-------------------------------------------------
E-------------------------------------------------

e--------------------------------------------
B--------------------------------------------
G-15----15----16---16----18--18---18----18---
D----16----16---16----16---16--16----16---16-
A--------------------------------------------
E--------------------------------------------

e---------------------------------------------------
B---------------------------------------------------
G-18----18-------------------16-15v-----15-18-18b20-
D----16----18v--16v-------16---------16-------------
A--------------------18v----------------------------
E---------------------------------------------------

e-------------------------------------------------
B-19-------19-------19-------19-------------------
G---18b20----18b20----18b20----18b20r18-16-15-15v-
D-------------------------------------------------
A-------------------------------------------------
E-------------------------------------------------


Am
And someone is calling my name
Em
From the back of the restaurant
Am
And someone is playing a game
Em
In the house that I grew up in
Am
And someone will drive her around
Bm
Down the same streets that I did
C                   D
On the same streets that I did

G/B            C        G    D/F#
Smile like you mean it
G/B            C        G    D/F#
Smile like you mean it
G/B            C        G    D/F#
Smile like you mean it
G/B            C        G    D/F#
Smile like you mean it

Final:
Oh No no(G.....Am....Em)

Termina en Em

viernes, 25 de mayo de 2012

COLDPLAY - THE SCIENTIST.

COLDPLAY es una banda de Britpop y Rock Alternativo fundada en Londres en el año 1996. Está compuesta por Chris Martin (voz, teclado, guitarra), Jon Buckland (primera guitarra), Guy Berryman (bajo) y Will Champion (batería). Su fama vino de parte de su disco debut en el 2000, especialmente con el sencillo “Yellow” que llegó a altas posiciones en diversos rankings. El grupo ha lanzado 5 álbumes de estudio hasta la fecha: “Parachutes” (2000), “A Rush of Blood to the Head” (2002), “X and Y” (2005), “Viva la Vida or Death and All of hid Friends” (2008) y “Mylo Xyloto” (2011). El penúltimo fue todo un éxito tanto en ventas como en la crítica, recibiendo varias nominaciones a los Grammy. La banda británica se ha caracterizado por colaborar con diversos proyectos benéficos en varias oportunidades. Actualmente se encuentran promocionando “Mylo Xyloto” que fue lanzado el 24 de octubre de 2011. La banda ha vendido más de 50 millones de discos en todo el mundo.

THE SCIENTIST:
Es el segundo sencillo del álbum “A Rush Of Blood To The Dead” de la banda Coldplay. Fue escrito por Guy Berryman, Jonny Buckland, Will Champion y Chris Martin; su lanzamiento se hizo el 4 de noviembre de 2002 en Reino Unido y el 15 de abril de 2003 en Estados Unidos. Es una canción de género musical Rock Alternativo y tiene una duración de 5:09 minutos en versión álbum.


*COMO TOCARLA EN GUITARRA.

Intro:
F F Fsus4

Verso 1:
Dm          Bb                      F
Come up to meet you, tell you I'm sorry
F                    Fsus4
You don't know how lovely you are.
Dm          Bb                  F
I had to find you, tell you I need you,
F                   Fsus4
Tell you I set you apart.

Dm             Bb                       F
Tell me your secrets and nurse me your questions,
F            Fsus4
Oh lets go back to the start.
Dm             Bb               F
Running in circles, Comin' in tails
F             Fsus4
Heads on a science apart.

Coro:
Bb     Bb                F
Nobody said it was easy,
F                              Fsus4
Oh it's such a shame for us to part.
Bb     Bb                F
Nobody said it was easy,
            Fsus4                       C/G
No one ever said it would be so hard.
C/G                  F
Oh take me back to the start.

Bb F F Fsus4

Verso 2:
Dm            Bb                     F
I was just guessin' at numbers and figures,
F             Fsus4
Pulling the puzzles apart.
Dm              Bb                   F
Questions of science, science and progress
F                 Fsus4
Don't speak as loud as my heart.

Dm                Bb                     F
And tell me you love me, come back and haunt me
          Fsus4
Oh and I rush to the start.
Dm           Bb               F
Runnin' in circles, Chasin' tails
F              Fsus4
Comin' back as we are

Coro:
Bb     Bb                F
Nobody said it was easy,
F                              Fsus4
Oh it's such a shame for us to part.
Bb     Bb                F
Nobody said it was easy,
            Fsus4                       C/G
No one ever said it would be so hard.
C/G                  F
Oh take me back to the start.

Puente:
Bb F F Fsus4  Dm Bb F Fsus4

Final:
Dm   Bb       F   F
  Ohhhh oooooo
Dm   Bb       F   F
  Ahhhh oooooo
Dm   Bb       F   Fsus4
  Ohhhh oooooo
Dm   Bb       F
  Ohhhh oooooo

*EL ACORDE Fsus4 SE PUEDE SUSTITUIR POR F5.